ISO-10303-21;
HEADER;
/* Generated by software containing ST-Developer
 * from STEP Tools, Inc. (www.steptools.com) 
 */

FILE_DESCRIPTION(
/* description */ ('',
'CAx-IF Rec.Pracs.---Representation and Presentation of Product Manufa
cturing Information (PMI)---3.8---2014-02-18'),
/* implementation_level */ '2;1');

FILE_NAME(
/* name */ 'C:\\Users\\Thomas\\Desktop\\XY\\XY_Chain_stepper_slider.st
p',
/* time_stamp */ '2021-03-25T22:30:30+01:00',
/* author */ ('Thomas'),
/* organization */ (''),
/* preprocessor_version */ 'ST-DEVELOPER v16.5',
/* originating_system */ 'Autodesk Inventor 2017',
/* authorisation */ '');

FILE_SCHEMA (('AP242_MANAGED_MODEL_BASED_3D_ENGINEERING_MIM_LF { 1 0 10303 442 1 1 4 }'));
ENDSEC;

DATA;
#10=MECHANICAL_DESIGN_GEOMETRIC_PRESENTATION_REPRESENTATION('',(#13),#676);
#11=SHAPE_REPRESENTATION_RELATIONSHIP('SRR','None',#685,#12);
#12=ADVANCED_BREP_SHAPE_REPRESENTATION('',(#14),#675);
#13=STYLED_ITEM('',(#694),#14);
#14=MANIFOLD_SOLID_BREP('Volumenk\X\F6rper32',#404);
#15=FACE_BOUND('',#73,.T.);
#16=FACE_BOUND('',#76,.T.);
#17=FACE_BOUND('',#82,.T.);
#18=FACE_BOUND('',#83,.T.);
#19=FACE_BOUND('',#84,.T.);
#20=FACE_BOUND('',#87,.T.);
#21=FACE_BOUND('',#89,.T.);
#22=CIRCLE('',#412,8.5);
#23=CIRCLE('',#413,8.5);
#24=CIRCLE('',#414,8.5);
#25=CIRCLE('',#415,8.5);
#26=CIRCLE('',#419,7.18488573340109);
#27=CIRCLE('',#420,7.18488573340109);
#28=CIRCLE('',#421,7.18488573340109);
#29=CIRCLE('',#426,3.);
#30=CIRCLE('',#427,1.65);
#31=CIRCLE('',#429,3.);
#32=CIRCLE('',#431,3.);
#33=CIRCLE('',#432,1.65);
#34=CIRCLE('',#434,3.);
#35=CIRCLE('',#439,1.65);
#36=CIRCLE('',#440,1.65);
#37=CYLINDRICAL_SURFACE('',#411,8.5);
#38=CYLINDRICAL_SURFACE('',#418,7.18488573340109);
#39=CYLINDRICAL_SURFACE('',#428,3.);
#40=CYLINDRICAL_SURFACE('',#433,3.);
#41=CYLINDRICAL_SURFACE('',#442,1.65);
#42=CYLINDRICAL_SURFACE('',#443,1.65);
#43=FACE_OUTER_BOUND('',#63,.T.);
#44=FACE_OUTER_BOUND('',#64,.T.);
#45=FACE_OUTER_BOUND('',#65,.T.);
#46=FACE_OUTER_BOUND('',#66,.T.);
#47=FACE_OUTER_BOUND('',#67,.T.);
#48=FACE_OUTER_BOUND('',#68,.T.);
#49=FACE_OUTER_BOUND('',#69,.T.);
#50=FACE_OUTER_BOUND('',#70,.T.);
#51=FACE_OUTER_BOUND('',#71,.T.);
#52=FACE_OUTER_BOUND('',#72,.T.);
#53=FACE_OUTER_BOUND('',#74,.T.);
#54=FACE_OUTER_BOUND('',#75,.T.);
#55=FACE_OUTER_BOUND('',#77,.T.);
#56=FACE_OUTER_BOUND('',#78,.T.);
#57=FACE_OUTER_BOUND('',#79,.T.);
#58=FACE_OUTER_BOUND('',#80,.T.);
#59=FACE_OUTER_BOUND('',#81,.T.);
#60=FACE_OUTER_BOUND('',#85,.T.);
#61=FACE_OUTER_BOUND('',#86,.T.);
#62=FACE_OUTER_BOUND('',#88,.T.);
#63=EDGE_LOOP('',(#260,#261,#262,#263,#264,#265));
#64=EDGE_LOOP('',(#266,#267,#268,#269));
#65=EDGE_LOOP('',(#270,#271,#272,#273,#274,#275,#276,#277,#278,#279));
#66=EDGE_LOOP('',(#280,#281));
#67=EDGE_LOOP('',(#282,#283,#284,#285));
#68=EDGE_LOOP('',(#286,#287,#288,#289,#290,#291,#292,#293));
#69=EDGE_LOOP('',(#294,#295,#296,#297));
#70=EDGE_LOOP('',(#298,#299,#300,#301));
#71=EDGE_LOOP('',(#302,#303,#304,#305));
#72=EDGE_LOOP('',(#306,#307));
#73=EDGE_LOOP('',(#308));
#74=EDGE_LOOP('',(#309,#310,#311,#312));
#75=EDGE_LOOP('',(#313,#314));
#76=EDGE_LOOP('',(#315));
#77=EDGE_LOOP('',(#316,#317,#318,#319));
#78=EDGE_LOOP('',(#320,#321,#322,#323,#324,#325,#326,#327,#328,#329,#330,
#331));
#79=EDGE_LOOP('',(#332,#333,#334,#335,#336,#337,#338,#339,#340,#341,#342,
#343,#344,#345,#346,#347));
#80=EDGE_LOOP('',(#348,#349,#350,#351));
#81=EDGE_LOOP('',(#352,#353,#354,#355,#356,#357));
#82=EDGE_LOOP('',(#358));
#83=EDGE_LOOP('',(#359));
#84=EDGE_LOOP('',(#360,#361));
#85=EDGE_LOOP('',(#362,#363,#364,#365));
#86=EDGE_LOOP('',(#366));
#87=EDGE_LOOP('',(#367));
#88=EDGE_LOOP('',(#368));
#89=EDGE_LOOP('',(#369));
#90=LINE('',#565,#127);
#91=LINE('',#569,#128);
#92=LINE('',#572,#129);
#93=LINE('',#575,#130);
#94=LINE('',#577,#131);
#95=LINE('',#578,#132);
#96=LINE('',#582,#133);
#97=LINE('',#586,#134);
#98=LINE('',#590,#135);
#99=LINE('',#595,#136);
#100=LINE('',#596,#137);
#101=LINE('',#601,#138);
#102=LINE('',#605,#139);
#103=LINE('',#610,#140);
#104=LINE('',#612,#141);
#105=LINE('',#614,#142);
#106=LINE('',#615,#143);
#107=LINE('',#617,#144);
#108=LINE('',#618,#145);
#109=LINE('',#621,#146);
#110=LINE('',#623,#147);
#111=LINE('',#624,#148);
#112=LINE('',#628,#149);
#113=LINE('',#634,#150);
#114=LINE('',#637,#151);
#115=LINE('',#641,#152);
#116=LINE('',#647,#153);
#117=LINE('',#650,#154);
#118=LINE('',#653,#155);
#119=LINE('',#655,#156);
#120=LINE('',#656,#157);
#121=LINE('',#657,#158);
#122=LINE('',#658,#159);
#123=LINE('',#660,#160);
#124=LINE('',#661,#161);
#125=LINE('',#663,#162);
#126=LINE('',#669,#163);
#127=VECTOR('',#450,10.);
#128=VECTOR('',#453,10.);
#129=VECTOR('',#456,10.);
#130=VECTOR('',#459,10.);
#131=VECTOR('',#460,10.);
#132=VECTOR('',#461,10.);
#133=VECTOR('',#466,10.);
#134=VECTOR('',#469,10.);
#135=VECTOR('',#472,10.);
#136=VECTOR('',#479,10.);
#137=VECTOR('',#480,10.);
#138=VECTOR('',#485,10.);
#139=VECTOR('',#488,10.);
#140=VECTOR('',#493,10.);
#141=VECTOR('',#494,10.);
#142=VECTOR('',#495,10.);
#143=VECTOR('',#496,10.);
#144=VECTOR('',#499,10.);
#145=VECTOR('',#500,10.);
#146=VECTOR('',#503,10.);
#147=VECTOR('',#504,10.);
#148=VECTOR('',#505,10.);
#149=VECTOR('',#508,10.);
#150=VECTOR('',#515,10.);
#151=VECTOR('',#518,10.);
#152=VECTOR('',#521,10.);
#153=VECTOR('',#528,10.);
#154=VECTOR('',#531,10.);
#155=VECTOR('',#534,10.);
#156=VECTOR('',#535,10.);
#157=VECTOR('',#536,10.);
#158=VECTOR('',#537,10.);
#159=VECTOR('',#538,10.);
#160=VECTOR('',#541,10.);
#161=VECTOR('',#542,10.);
#162=VECTOR('',#545,10.);
#163=VECTOR('',#552,10.);
#164=ELLIPSE('',#407,12.0208152801713,8.5);
#165=ELLIPSE('',#408,12.0208152801713,8.5);
#166=ELLIPSE('',#409,10.1609628482768,7.18488573340109);
#167=VERTEX_POINT('',#561);
#168=VERTEX_POINT('',#562);
#169=VERTEX_POINT('',#564);
#170=VERTEX_POINT('',#566);
#171=VERTEX_POINT('',#568);
#172=VERTEX_POINT('',#570);
#173=VERTEX_POINT('',#574);
#174=VERTEX_POINT('',#576);
#175=VERTEX_POINT('',#581);
#176=VERTEX_POINT('',#583);
#177=VERTEX_POINT('',#585);
#178=VERTEX_POINT('',#587);
#179=VERTEX_POINT('',#589);
#180=VERTEX_POINT('',#594);
#181=VERTEX_POINT('',#598);
#182=VERTEX_POINT('',#600);
#183=VERTEX_POINT('',#602);
#184=VERTEX_POINT('',#604);
#185=VERTEX_POINT('',#608);
#186=VERTEX_POINT('',#609);
#187=VERTEX_POINT('',#611);
#188=VERTEX_POINT('',#613);
#189=VERTEX_POINT('',#620);
#190=VERTEX_POINT('',#622);
#191=VERTEX_POINT('',#626);
#192=VERTEX_POINT('',#627);
#193=VERTEX_POINT('',#630);
#194=VERTEX_POINT('',#633);
#195=VERTEX_POINT('',#635);
#196=VERTEX_POINT('',#639);
#197=VERTEX_POINT('',#640);
#198=VERTEX_POINT('',#643);
#199=VERTEX_POINT('',#646);
#200=VERTEX_POINT('',#648);
#201=VERTEX_POINT('',#652);
#202=VERTEX_POINT('',#654);
#203=VERTEX_POINT('',#665);
#204=VERTEX_POINT('',#667);
#205=EDGE_CURVE('',#167,#168,#164,.T.);
#206=EDGE_CURVE('',#168,#169,#90,.T.);
#207=EDGE_CURVE('',#169,#170,#165,.T.);
#208=EDGE_CURVE('',#170,#171,#91,.T.);
#209=EDGE_CURVE('',#171,#172,#166,.T.);
#210=EDGE_CURVE('',#172,#167,#92,.T.);
#211=EDGE_CURVE('',#173,#170,#93,.T.);
#212=EDGE_CURVE('',#174,#173,#94,.T.);
#213=EDGE_CURVE('',#171,#174,#95,.T.);
#214=EDGE_CURVE('',#168,#169,#22,.T.);
#215=EDGE_CURVE('',#167,#175,#96,.T.);
#216=EDGE_CURVE('',#175,#176,#23,.T.);
#217=EDGE_CURVE('',#176,#177,#97,.T.);
#218=EDGE_CURVE('',#177,#178,#24,.T.);
#219=EDGE_CURVE('',#179,#178,#98,.T.);
#220=EDGE_CURVE('',#179,#173,#25,.T.);
#221=EDGE_CURVE('',#180,#172,#99,.T.);
#222=EDGE_CURVE('',#175,#180,#100,.T.);
#223=EDGE_CURVE('',#174,#181,#26,.T.);
#224=EDGE_CURVE('',#182,#181,#101,.T.);
#225=EDGE_CURVE('',#182,#183,#27,.T.);
#226=EDGE_CURVE('',#184,#183,#102,.T.);
#227=EDGE_CURVE('',#184,#180,#28,.T.);
#228=EDGE_CURVE('',#185,#186,#103,.T.);
#229=EDGE_CURVE('',#187,#186,#104,.T.);
#230=EDGE_CURVE('',#187,#188,#105,.T.);
#231=EDGE_CURVE('',#188,#185,#106,.T.);
#232=EDGE_CURVE('',#186,#177,#107,.T.);
#233=EDGE_CURVE('',#176,#187,#108,.T.);
#234=EDGE_CURVE('',#178,#189,#109,.T.);
#235=EDGE_CURVE('',#190,#189,#110,.T.);
#236=EDGE_CURVE('',#190,#179,#111,.T.);
#237=EDGE_CURVE('',#191,#192,#112,.T.);
#238=EDGE_CURVE('',#192,#191,#29,.T.);
#239=EDGE_CURVE('',#193,#193,#30,.T.);
#240=EDGE_CURVE('',#194,#191,#113,.T.);
#241=EDGE_CURVE('',#195,#194,#31,.T.);
#242=EDGE_CURVE('',#192,#195,#114,.T.);
#243=EDGE_CURVE('',#196,#197,#115,.T.);
#244=EDGE_CURVE('',#197,#196,#32,.T.);
#245=EDGE_CURVE('',#198,#198,#33,.T.);
#246=EDGE_CURVE('',#199,#196,#116,.T.);
#247=EDGE_CURVE('',#200,#199,#34,.T.);
#248=EDGE_CURVE('',#197,#200,#117,.T.);
#249=EDGE_CURVE('',#195,#201,#118,.T.);
#250=EDGE_CURVE('',#202,#201,#119,.T.);
#251=EDGE_CURVE('',#185,#202,#120,.T.);
#252=EDGE_CURVE('',#188,#199,#121,.T.);
#253=EDGE_CURVE('',#200,#194,#122,.T.);
#254=EDGE_CURVE('',#181,#184,#123,.T.);
#255=EDGE_CURVE('',#201,#190,#124,.T.);
#256=EDGE_CURVE('',#189,#202,#125,.T.);
#257=EDGE_CURVE('',#203,#203,#35,.T.);
#258=EDGE_CURVE('',#204,#204,#36,.T.);
#259=EDGE_CURVE('',#182,#183,#126,.T.);
#260=ORIENTED_EDGE('',*,*,#205,.T.);
#261=ORIENTED_EDGE('',*,*,#206,.T.);
#262=ORIENTED_EDGE('',*,*,#207,.T.);
#263=ORIENTED_EDGE('',*,*,#208,.T.);
#264=ORIENTED_EDGE('',*,*,#209,.T.);
#265=ORIENTED_EDGE('',*,*,#210,.T.);
#266=ORIENTED_EDGE('',*,*,#208,.F.);
#267=ORIENTED_EDGE('',*,*,#211,.F.);
#268=ORIENTED_EDGE('',*,*,#212,.F.);
#269=ORIENTED_EDGE('',*,*,#213,.F.);
#270=ORIENTED_EDGE('',*,*,#207,.F.);
#271=ORIENTED_EDGE('',*,*,#214,.F.);
#272=ORIENTED_EDGE('',*,*,#205,.F.);
#273=ORIENTED_EDGE('',*,*,#215,.T.);
#274=ORIENTED_EDGE('',*,*,#216,.T.);
#275=ORIENTED_EDGE('',*,*,#217,.T.);
#276=ORIENTED_EDGE('',*,*,#218,.T.);
#277=ORIENTED_EDGE('',*,*,#219,.F.);
#278=ORIENTED_EDGE('',*,*,#220,.T.);
#279=ORIENTED_EDGE('',*,*,#211,.T.);
#280=ORIENTED_EDGE('',*,*,#206,.F.);
#281=ORIENTED_EDGE('',*,*,#214,.T.);
#282=ORIENTED_EDGE('',*,*,#210,.F.);
#283=ORIENTED_EDGE('',*,*,#221,.F.);
#284=ORIENTED_EDGE('',*,*,#222,.F.);
#285=ORIENTED_EDGE('',*,*,#215,.F.);
#286=ORIENTED_EDGE('',*,*,#209,.F.);
#287=ORIENTED_EDGE('',*,*,#213,.T.);
#288=ORIENTED_EDGE('',*,*,#223,.T.);
#289=ORIENTED_EDGE('',*,*,#224,.F.);
#290=ORIENTED_EDGE('',*,*,#225,.T.);
#291=ORIENTED_EDGE('',*,*,#226,.F.);
#292=ORIENTED_EDGE('',*,*,#227,.T.);
#293=ORIENTED_EDGE('',*,*,#221,.T.);
#294=ORIENTED_EDGE('',*,*,#228,.T.);
#295=ORIENTED_EDGE('',*,*,#229,.F.);
#296=ORIENTED_EDGE('',*,*,#230,.T.);
#297=ORIENTED_EDGE('',*,*,#231,.T.);
#298=ORIENTED_EDGE('',*,*,#232,.T.);
#299=ORIENTED_EDGE('',*,*,#217,.F.);
#300=ORIENTED_EDGE('',*,*,#233,.T.);
#301=ORIENTED_EDGE('',*,*,#229,.T.);
#302=ORIENTED_EDGE('',*,*,#234,.T.);
#303=ORIENTED_EDGE('',*,*,#235,.F.);
#304=ORIENTED_EDGE('',*,*,#236,.T.);
#305=ORIENTED_EDGE('',*,*,#219,.T.);
#306=ORIENTED_EDGE('',*,*,#237,.F.);
#307=ORIENTED_EDGE('',*,*,#238,.F.);
#308=ORIENTED_EDGE('',*,*,#239,.F.);
#309=ORIENTED_EDGE('',*,*,#240,.F.);
#310=ORIENTED_EDGE('',*,*,#241,.F.);
#311=ORIENTED_EDGE('',*,*,#242,.F.);
#312=ORIENTED_EDGE('',*,*,#238,.T.);
#313=ORIENTED_EDGE('',*,*,#243,.F.);
#314=ORIENTED_EDGE('',*,*,#244,.F.);
#315=ORIENTED_EDGE('',*,*,#245,.F.);
#316=ORIENTED_EDGE('',*,*,#246,.F.);
#317=ORIENTED_EDGE('',*,*,#247,.F.);
#318=ORIENTED_EDGE('',*,*,#248,.F.);
#319=ORIENTED_EDGE('',*,*,#244,.T.);
#320=ORIENTED_EDGE('',*,*,#240,.T.);
#321=ORIENTED_EDGE('',*,*,#237,.T.);
#322=ORIENTED_EDGE('',*,*,#242,.T.);
#323=ORIENTED_EDGE('',*,*,#249,.T.);
#324=ORIENTED_EDGE('',*,*,#250,.F.);
#325=ORIENTED_EDGE('',*,*,#251,.F.);
#326=ORIENTED_EDGE('',*,*,#231,.F.);
#327=ORIENTED_EDGE('',*,*,#252,.T.);
#328=ORIENTED_EDGE('',*,*,#246,.T.);
#329=ORIENTED_EDGE('',*,*,#243,.T.);
#330=ORIENTED_EDGE('',*,*,#248,.T.);
#331=ORIENTED_EDGE('',*,*,#253,.T.);
#332=ORIENTED_EDGE('',*,*,#241,.T.);
#333=ORIENTED_EDGE('',*,*,#253,.F.);
#334=ORIENTED_EDGE('',*,*,#247,.T.);
#335=ORIENTED_EDGE('',*,*,#252,.F.);
#336=ORIENTED_EDGE('',*,*,#230,.F.);
#337=ORIENTED_EDGE('',*,*,#233,.F.);
#338=ORIENTED_EDGE('',*,*,#216,.F.);
#339=ORIENTED_EDGE('',*,*,#222,.T.);
#340=ORIENTED_EDGE('',*,*,#227,.F.);
#341=ORIENTED_EDGE('',*,*,#254,.F.);
#342=ORIENTED_EDGE('',*,*,#223,.F.);
#343=ORIENTED_EDGE('',*,*,#212,.T.);
#344=ORIENTED_EDGE('',*,*,#220,.F.);
#345=ORIENTED_EDGE('',*,*,#236,.F.);
#346=ORIENTED_EDGE('',*,*,#255,.F.);
#347=ORIENTED_EDGE('',*,*,#249,.F.);
#348=ORIENTED_EDGE('',*,*,#256,.T.);
#349=ORIENTED_EDGE('',*,*,#250,.T.);
#350=ORIENTED_EDGE('',*,*,#255,.T.);
#351=ORIENTED_EDGE('',*,*,#235,.T.);
#352=ORIENTED_EDGE('',*,*,#228,.F.);
#353=ORIENTED_EDGE('',*,*,#251,.T.);
#354=ORIENTED_EDGE('',*,*,#256,.F.);
#355=ORIENTED_EDGE('',*,*,#234,.F.);
#356=ORIENTED_EDGE('',*,*,#218,.F.);
#357=ORIENTED_EDGE('',*,*,#232,.F.);
#358=ORIENTED_EDGE('',*,*,#257,.T.);
#359=ORIENTED_EDGE('',*,*,#258,.T.);
#360=ORIENTED_EDGE('',*,*,#225,.F.);
#361=ORIENTED_EDGE('',*,*,#259,.T.);
#362=ORIENTED_EDGE('',*,*,#224,.T.);
#363=ORIENTED_EDGE('',*,*,#254,.T.);
#364=ORIENTED_EDGE('',*,*,#226,.T.);
#365=ORIENTED_EDGE('',*,*,#259,.F.);
#366=ORIENTED_EDGE('',*,*,#245,.T.);
#367=ORIENTED_EDGE('',*,*,#258,.F.);
#368=ORIENTED_EDGE('',*,*,#239,.T.);
#369=ORIENTED_EDGE('',*,*,#257,.F.);
#370=PLANE('',#406);
#371=PLANE('',#410);
#372=PLANE('',#416);
#373=PLANE('',#417);
#374=PLANE('',#422);
#375=PLANE('',#423);
#376=PLANE('',#424);
#377=PLANE('',#425);
#378=PLANE('',#430);
#379=PLANE('',#435);
#380=PLANE('',#436);
#381=PLANE('',#437);
#382=PLANE('',#438);
#383=PLANE('',#441);
#384=ADVANCED_FACE('',(#43),#370,.T.);
#385=ADVANCED_FACE('',(#44),#371,.F.);
#386=ADVANCED_FACE('',(#45),#37,.T.);
#387=ADVANCED_FACE('',(#46),#372,.F.);
#388=ADVANCED_FACE('',(#47),#373,.F.);
#389=ADVANCED_FACE('',(#48),#38,.F.);
#390=ADVANCED_FACE('',(#49),#374,.T.);
#391=ADVANCED_FACE('',(#50),#375,.T.);
#392=ADVANCED_FACE('',(#51),#376,.T.);
#393=ADVANCED_FACE('',(#52,#15),#377,.T.);
#394=ADVANCED_FACE('',(#53),#39,.F.);
#395=ADVANCED_FACE('',(#54,#16),#378,.T.);
#396=ADVANCED_FACE('',(#55),#40,.F.);
#397=ADVANCED_FACE('',(#56),#379,.F.);
#398=ADVANCED_FACE('',(#57),#380,.F.);
#399=ADVANCED_FACE('',(#58),#381,.T.);
#400=ADVANCED_FACE('',(#59,#17,#18,#19),#382,.T.);
#401=ADVANCED_FACE('',(#60),#383,.T.);
#402=ADVANCED_FACE('',(#61,#20),#41,.F.);
#403=ADVANCED_FACE('',(#62,#21),#42,.F.);
#404=CLOSED_SHELL('',(#384,#385,#386,#387,#388,#389,#390,#391,#392,#393,
#394,#395,#396,#397,#398,#399,#400,#401,#402,#403));
#405=AXIS2_PLACEMENT_3D('placement',#559,#444,#445);
#406=AXIS2_PLACEMENT_3D('',#560,#446,#447);
#407=AXIS2_PLACEMENT_3D('',#563,#448,#449);
#408=AXIS2_PLACEMENT_3D('',#567,#451,#452);
#409=AXIS2_PLACEMENT_3D('',#571,#454,#455);
#410=AXIS2_PLACEMENT_3D('',#573,#457,#458);
#411=AXIS2_PLACEMENT_3D('',#579,#462,#463);
#412=AXIS2_PLACEMENT_3D('',#580,#464,#465);
#413=AXIS2_PLACEMENT_3D('',#584,#467,#468);
#414=AXIS2_PLACEMENT_3D('',#588,#470,#471);
#415=AXIS2_PLACEMENT_3D('',#591,#473,#474);
#416=AXIS2_PLACEMENT_3D('',#592,#475,#476);
#417=AXIS2_PLACEMENT_3D('',#593,#477,#478);
#418=AXIS2_PLACEMENT_3D('',#597,#481,#482);
#419=AXIS2_PLACEMENT_3D('',#599,#483,#484);
#420=AXIS2_PLACEMENT_3D('',#603,#486,#487);
#421=AXIS2_PLACEMENT_3D('',#606,#489,#490);
#422=AXIS2_PLACEMENT_3D('',#607,#491,#492);
#423=AXIS2_PLACEMENT_3D('',#616,#497,#498);
#424=AXIS2_PLACEMENT_3D('',#619,#501,#502);
#425=AXIS2_PLACEMENT_3D('',#625,#506,#507);
#426=AXIS2_PLACEMENT_3D('',#629,#509,#510);
#427=AXIS2_PLACEMENT_3D('',#631,#511,#512);
#428=AXIS2_PLACEMENT_3D('',#632,#513,#514);
#429=AXIS2_PLACEMENT_3D('',#636,#516,#517);
#430=AXIS2_PLACEMENT_3D('',#638,#519,#520);
#431=AXIS2_PLACEMENT_3D('',#642,#522,#523);
#432=AXIS2_PLACEMENT_3D('',#644,#524,#525);
#433=AXIS2_PLACEMENT_3D('',#645,#526,#527);
#434=AXIS2_PLACEMENT_3D('',#649,#529,#530);
#435=AXIS2_PLACEMENT_3D('',#651,#532,#533);
#436=AXIS2_PLACEMENT_3D('',#659,#539,#540);
#437=AXIS2_PLACEMENT_3D('',#662,#543,#544);
#438=AXIS2_PLACEMENT_3D('',#664,#546,#547);
#439=AXIS2_PLACEMENT_3D('',#666,#548,#549);
#440=AXIS2_PLACEMENT_3D('',#668,#550,#551);
#441=AXIS2_PLACEMENT_3D('',#670,#553,#554);
#442=AXIS2_PLACEMENT_3D('',#671,#555,#556);
#443=AXIS2_PLACEMENT_3D('',#672,#557,#558);
#444=DIRECTION('axis',(0.,0.,1.));
#445=DIRECTION('refdir',(1.,0.,0.));
#446=DIRECTION('center_axis',(0.,0.707106781186548,-0.707106781186548));
#447=DIRECTION('ref_axis',(-1.,0.,0.));
#448=DIRECTION('center_axis',(0.,0.707106781186548,-0.707106781186548));
#449=DIRECTION('ref_axis',(0.,0.707106781186548,0.707106781186548));
#450=DIRECTION('',(1.,0.,0.));
#451=DIRECTION('center_axis',(0.,0.707106781186548,-0.707106781186548));
#452=DIRECTION('ref_axis',(0.,0.707106781186548,0.707106781186548));
#453=DIRECTION('',(-1.,0.,0.));
#454=DIRECTION('center_axis',(0.,-0.707106781186548,0.707106781186548));
#455=DIRECTION('ref_axis',(-1.09263564999004E-16,-0.707106781186548,-0.707106781186548));
#456=DIRECTION('',(-1.,0.,0.));
#457=DIRECTION('center_axis',(0.,0.,1.));
#458=DIRECTION('ref_axis',(0.,-1.,0.));
#459=DIRECTION('',(0.,1.,0.));
#460=DIRECTION('',(1.,0.,0.));
#461=DIRECTION('',(0.,-1.,0.));
#462=DIRECTION('center_axis',(0.,-1.,0.));
#463=DIRECTION('ref_axis',(-0.941176470588235,0.,0.337915449796355));
#464=DIRECTION('center_axis',(0.,1.,0.));
#465=DIRECTION('ref_axis',(-0.941176470588235,0.,0.337915449796355));
#466=DIRECTION('',(0.,-1.,0.));
#467=DIRECTION('center_axis',(0.,-1.,0.));
#468=DIRECTION('ref_axis',(-0.941176470588235,0.,0.337915449796355));
#469=DIRECTION('',(0.,-1.,0.));
#470=DIRECTION('center_axis',(0.,1.,0.));
#471=DIRECTION('ref_axis',(-0.941176470588235,0.,0.337915449796355));
#472=DIRECTION('',(0.,-1.,0.));
#473=DIRECTION('center_axis',(0.,-1.,0.));
#474=DIRECTION('ref_axis',(-0.941176470588235,0.,0.337915449796355));
#475=DIRECTION('center_axis',(0.,-1.,0.));
#476=DIRECTION('ref_axis',(0.,0.,-1.));
#477=DIRECTION('center_axis',(0.,0.,1.));
#478=DIRECTION('ref_axis',(0.,-1.,0.));
#479=DIRECTION('',(0.,1.,0.));
#480=DIRECTION('',(1.,0.,0.));
#481=DIRECTION('center_axis',(0.,-1.,0.));
#482=DIRECTION('ref_axis',(0.916616725998983,0.,-0.399767154252205));
#483=DIRECTION('center_axis',(0.,1.,0.));
#484=DIRECTION('ref_axis',(0.916616725998983,0.,-0.399767154252205));
#485=DIRECTION('',(0.,1.,0.));
#486=DIRECTION('center_axis',(0.,-1.,0.));
#487=DIRECTION('ref_axis',(0.916616725998983,0.,-0.399767154252205));
#488=DIRECTION('',(0.,-1.,0.));
#489=DIRECTION('center_axis',(0.,1.,0.));
#490=DIRECTION('ref_axis',(0.916616725998983,0.,-0.399767154252205));
#491=DIRECTION('center_axis',(-1.,0.,0.));
#492=DIRECTION('ref_axis',(0.,0.,1.));
#493=DIRECTION('',(0.,0.,1.));
#494=DIRECTION('',(0.,-1.,0.));
#495=DIRECTION('',(0.,0.,-1.));
#496=DIRECTION('',(0.,-1.,0.));
#497=DIRECTION('center_axis',(-0.707106781186548,0.,0.707106781186547));
#498=DIRECTION('ref_axis',(-0.707106781186547,0.,-0.707106781186548));
#499=DIRECTION('',(0.707106781186547,0.,0.707106781186548));
#500=DIRECTION('',(-0.707106781186547,0.,-0.707106781186548));
#501=DIRECTION('center_axis',(0.707106781186548,0.,0.707106781186547));
#502=DIRECTION('ref_axis',(-0.707106781186547,0.,0.707106781186548));
#503=DIRECTION('',(0.707106781186547,0.,-0.707106781186548));
#504=DIRECTION('',(0.,-1.,0.));
#505=DIRECTION('',(-0.707106781186547,0.,0.707106781186548));
#506=DIRECTION('center_axis',(0.,1.,0.));
#507=DIRECTION('ref_axis',(0.,0.,1.));
#508=DIRECTION('',(1.,0.,0.));
#509=DIRECTION('center_axis',(0.,-1.,0.));
#510=DIRECTION('ref_axis',(-1.,0.,0.));
#511=DIRECTION('center_axis',(0.,1.,0.));
#512=DIRECTION('ref_axis',(-1.,0.,0.));
#513=DIRECTION('center_axis',(0.,-1.,0.));
#514=DIRECTION('ref_axis',(-1.,0.,0.));
#515=DIRECTION('',(0.,-1.,0.));
#516=DIRECTION('center_axis',(0.,-1.,0.));
#517=DIRECTION('ref_axis',(-1.,0.,0.));
#518=DIRECTION('',(0.,1.,0.));
#519=DIRECTION('center_axis',(0.,1.,0.));
#520=DIRECTION('ref_axis',(0.,0.,1.));
#521=DIRECTION('',(1.,0.,0.));
#522=DIRECTION('center_axis',(0.,-1.,0.));
#523=DIRECTION('ref_axis',(-1.,0.,0.));
#524=DIRECTION('center_axis',(0.,1.,0.));
#525=DIRECTION('ref_axis',(-1.,0.,0.));
#526=DIRECTION('center_axis',(0.,-1.,0.));
#527=DIRECTION('ref_axis',(-1.,0.,0.));
#528=DIRECTION('',(0.,-1.,0.));
#529=DIRECTION('center_axis',(0.,-1.,0.));
#530=DIRECTION('ref_axis',(-1.,0.,0.));
#531=DIRECTION('',(0.,1.,0.));
#532=DIRECTION('center_axis',(0.,0.,1.));
#533=DIRECTION('ref_axis',(0.,1.,0.));
#534=DIRECTION('',(1.,0.,0.));
#535=DIRECTION('',(0.,1.,0.));
#536=DIRECTION('',(1.,0.,0.));
#537=DIRECTION('',(1.,0.,0.));
#538=DIRECTION('',(1.,0.,0.));
#539=DIRECTION('center_axis',(0.,-1.,0.));
#540=DIRECTION('ref_axis',(0.,0.,-1.));
#541=DIRECTION('',(-1.,0.,0.));
#542=DIRECTION('',(0.,0.,1.));
#543=DIRECTION('center_axis',(1.,0.,0.));
#544=DIRECTION('ref_axis',(0.,0.,-1.));
#545=DIRECTION('',(0.,0.,-1.));
#546=DIRECTION('center_axis',(0.,-1.,0.));
#547=DIRECTION('ref_axis',(0.,0.,-1.));
#548=DIRECTION('center_axis',(0.,1.,0.));
#549=DIRECTION('ref_axis',(-1.,0.,0.));
#550=DIRECTION('center_axis',(0.,1.,0.));
#551=DIRECTION('ref_axis',(-1.,0.,0.));
#552=DIRECTION('',(-1.,0.,0.));
#553=DIRECTION('center_axis',(0.,0.,1.));
#554=DIRECTION('ref_axis',(-1.,0.,0.));
#555=DIRECTION('center_axis',(0.,1.,0.));
#556=DIRECTION('ref_axis',(-1.,0.,0.));
#557=DIRECTION('center_axis',(0.,1.,0.));
#558=DIRECTION('ref_axis',(-1.,0.,0.));
#559=CARTESIAN_POINT('',(0.,0.,0.));
#560=CARTESIAN_POINT('Origin',(-5.5,15.,57.5));
#561=CARTESIAN_POINT('',(-6.58700185089202,14.,56.5));
#562=CARTESIAN_POINT('',(-4.23077629881075,16.,58.5));
#563=CARTESIAN_POINT('Origin',(2.22044604925031E-15,8.62771867673099,51.127718676731));
#564=CARTESIAN_POINT('',(4.23077629881076,16.,58.5));
#565=CARTESIAN_POINT('',(-5.5,16.,58.5));
#566=CARTESIAN_POINT('',(6.58700185089202,14.,56.5));
#567=CARTESIAN_POINT('Origin',(2.22044604925031E-15,8.62771867673099,51.127718676731));
#568=CARTESIAN_POINT('',(4.77086746679107,14.,56.5));
#569=CARTESIAN_POINT('',(-8.25,14.,56.5));
#570=CARTESIAN_POINT('',(-4.77086746679107,14.,56.5));
#571=CARTESIAN_POINT('Origin',(0.,8.62771867673098,51.127718676731));
#572=CARTESIAN_POINT('',(-5.5,14.,56.5));
#573=CARTESIAN_POINT('Origin',(-11.,26.116232801043,56.5));
#574=CARTESIAN_POINT('',(6.58700185089202,4.,56.5));
#575=CARTESIAN_POINT('',(6.58700185089202,16.,56.5));
#576=CARTESIAN_POINT('',(4.77086746679107,4.,56.5));
#577=CARTESIAN_POINT('',(-11.,4.,56.5));
#578=CARTESIAN_POINT('',(4.77086746679107,16.,56.5));
#579=CARTESIAN_POINT('Origin',(2.22044604925031E-15,16.,51.127718676731));
#580=CARTESIAN_POINT('Origin',(2.22044604925031E-15,16.,51.127718676731));
#581=CARTESIAN_POINT('',(-6.58700185089202,4.,56.5));
#582=CARTESIAN_POINT('',(-6.58700185089202,16.,56.5));
#583=CARTESIAN_POINT('',(-8.,4.,54.));
#584=CARTESIAN_POINT('Origin',(2.22044604925031E-15,4.,51.127718676731));
#585=CARTESIAN_POINT('',(-8.,-7.5,54.));
#586=CARTESIAN_POINT('',(-8.,16.,54.));
#587=CARTESIAN_POINT('',(8.,-7.5,54.));
#588=CARTESIAN_POINT('Origin',(2.22044604925031E-15,-7.5,51.127718676731));
#589=CARTESIAN_POINT('',(8.,4.,54.));
#590=CARTESIAN_POINT('',(8.,16.,54.));
#591=CARTESIAN_POINT('Origin',(2.22044604925031E-15,4.,51.127718676731));
#592=CARTESIAN_POINT('Origin',(1.75025675533492E-15,16.,56.9776554046579));
#593=CARTESIAN_POINT('Origin',(-11.,26.116232801043,56.5));
#594=CARTESIAN_POINT('',(-4.77086746679107,4.,56.5));
#595=CARTESIAN_POINT('',(-4.77086746679107,16.,56.5));
#596=CARTESIAN_POINT('',(-11.,4.,56.5));
#597=CARTESIAN_POINT('Origin',(0.,16.,51.127718676731));
#598=CARTESIAN_POINT('',(6.58578643762691,4.,54.));
#599=CARTESIAN_POINT('Origin',(0.,4.,51.127718676731));
#600=CARTESIAN_POINT('',(6.58578643762691,-7.5,54.));
#601=CARTESIAN_POINT('',(6.58578643762691,16.,54.));
#602=CARTESIAN_POINT('',(-6.58578643762691,-7.5,54.));
#603=CARTESIAN_POINT('Origin',(0.,-7.5,51.127718676731));
#604=CARTESIAN_POINT('',(-6.58578643762691,4.,54.));
#605=CARTESIAN_POINT('',(-6.58578643762691,16.,54.));
#606=CARTESIAN_POINT('Origin',(0.,4.,51.127718676731));
#607=CARTESIAN_POINT('Origin',(-11.,-7.5,47.));
#608=CARTESIAN_POINT('',(-11.,-7.5,48.));
#609=CARTESIAN_POINT('',(-11.,-7.5,51.));
#610=CARTESIAN_POINT('',(-11.,-7.5,47.));
#611=CARTESIAN_POINT('',(-11.,4.,51.));
#612=CARTESIAN_POINT('',(-11.,16.,51.));
#613=CARTESIAN_POINT('',(-11.,4.,48.));
#614=CARTESIAN_POINT('',(-11.,4.,50.5));
#615=CARTESIAN_POINT('',(-11.,-7.5,48.));
#616=CARTESIAN_POINT('Origin',(-8.,16.,54.));
#617=CARTESIAN_POINT('',(-10.25,-7.5,51.75));
#618=CARTESIAN_POINT('',(-8.75,4.,53.25));
#619=CARTESIAN_POINT('Origin',(11.,16.,51.));
#620=CARTESIAN_POINT('',(11.,-7.5,51.));
#621=CARTESIAN_POINT('',(6.25000000000001,-7.5,55.75));
#622=CARTESIAN_POINT('',(11.,4.,51.));
#623=CARTESIAN_POINT('',(11.,16.,51.));
#624=CARTESIAN_POINT('',(4.75000000000001,4.,57.25));
#625=CARTESIAN_POINT('Origin',(6.,0.499999999999999,50.5));
#626=CARTESIAN_POINT('',(4.34168760482231,0.499999999999998,48.));
#627=CARTESIAN_POINT('',(7.65831239517769,0.499999999999998,48.));
#628=CARTESIAN_POINT('',(8.5,0.499999999999999,48.));
#629=CARTESIAN_POINT('Origin',(6.,0.499999999999999,50.5));
#630=CARTESIAN_POINT('',(7.65,0.499999999999999,50.5));
#631=CARTESIAN_POINT('Origin',(6.,0.499999999999999,50.5));
#632=CARTESIAN_POINT('Origin',(6.,4.,50.5));
#633=CARTESIAN_POINT('',(4.34168760482231,4.,48.));
#634=CARTESIAN_POINT('',(4.34168760482231,4.,48.));
#635=CARTESIAN_POINT('',(7.65831239517769,4.,48.));
#636=CARTESIAN_POINT('Origin',(6.,4.,50.5));
#637=CARTESIAN_POINT('',(7.65831239517769,4.,48.));
#638=CARTESIAN_POINT('Origin',(-6.,0.499999999999998,50.5));
#639=CARTESIAN_POINT('',(-7.65831239517769,0.499999999999998,48.));
#640=CARTESIAN_POINT('',(-4.34168760482231,0.499999999999998,48.));
#641=CARTESIAN_POINT('',(2.5,0.499999999999998,48.));
#642=CARTESIAN_POINT('Origin',(-6.,0.499999999999999,50.5));
#643=CARTESIAN_POINT('',(-4.35,0.499999999999999,50.5));
#644=CARTESIAN_POINT('Origin',(-6.,0.499999999999998,50.5));
#645=CARTESIAN_POINT('Origin',(-6.,4.,50.5));
#646=CARTESIAN_POINT('',(-7.65831239517769,4.,48.));
#647=CARTESIAN_POINT('',(-7.65831239517769,4.,48.));
#648=CARTESIAN_POINT('',(-4.34168760482231,4.,48.));
#649=CARTESIAN_POINT('Origin',(-6.,4.,50.5));
#650=CARTESIAN_POINT('',(-4.34168760482231,4.,48.));
#651=CARTESIAN_POINT('Origin',(11.,-7.5,48.));
#652=CARTESIAN_POINT('',(11.,4.,48.));
#653=CARTESIAN_POINT('',(0.,4.,48.));
#654=CARTESIAN_POINT('',(11.,-7.5,48.));
#655=CARTESIAN_POINT('',(11.,-7.5,48.));
#656=CARTESIAN_POINT('',(5.5,-7.5,48.));
#657=CARTESIAN_POINT('',(0.,4.,48.));
#658=CARTESIAN_POINT('',(0.,4.,48.));
#659=CARTESIAN_POINT('Origin',(-11.,4.,54.));
#660=CARTESIAN_POINT('',(-8.79289321881345,4.,54.));
#661=CARTESIAN_POINT('',(11.,4.,51.7928932188135));
#662=CARTESIAN_POINT('Origin',(11.,-7.5,49.5857864376269));
#663=CARTESIAN_POINT('',(11.,-7.5,49.5857864376269));
#664=CARTESIAN_POINT('Origin',(-3.21434930736261E-16,-7.5,50.5385327837962));
#665=CARTESIAN_POINT('',(7.65,-7.5,50.5));
#666=CARTESIAN_POINT('Origin',(6.,-7.5,50.5));
#667=CARTESIAN_POINT('',(-4.35,-7.5,50.5));
#668=CARTESIAN_POINT('Origin',(-6.,-7.5,50.5));
#669=CARTESIAN_POINT('',(2.79289321881345,-7.5,54.));
#670=CARTESIAN_POINT('Origin',(-6.58578643762691,16.,54.));
#671=CARTESIAN_POINT('Origin',(-6.,-7.5,50.5));
#672=CARTESIAN_POINT('Origin',(6.,-7.5,50.5));
#673=UNCERTAINTY_MEASURE_WITH_UNIT(LENGTH_MEASURE(0.01),#677,
'DISTANCE_ACCURACY_VALUE',
'Maximum model space distance between geometric entities at asserted c
onnectivities');
#674=UNCERTAINTY_MEASURE_WITH_UNIT(LENGTH_MEASURE(1.E-6),#677,
'DISTANCE_ACCURACY_VALUE',
'Maximum model space distance between geometric entities at asserted c
onnectivities');
#675=(
GEOMETRIC_REPRESENTATION_CONTEXT(3)
GLOBAL_UNCERTAINTY_ASSIGNED_CONTEXT((#673))
GLOBAL_UNIT_ASSIGNED_CONTEXT((#677,#680,#678))
REPRESENTATION_CONTEXT('','3D')
);
#676=(
GEOMETRIC_REPRESENTATION_CONTEXT(3)
GLOBAL_UNCERTAINTY_ASSIGNED_CONTEXT((#674))
GLOBAL_UNIT_ASSIGNED_CONTEXT((#677,#680,#678))
REPRESENTATION_CONTEXT('','3D')
);
#677=(
LENGTH_UNIT()
NAMED_UNIT(*)
SI_UNIT(.MILLI.,.METRE.)
);
#678=(
NAMED_UNIT(*)
SI_UNIT($,.STERADIAN.)
SOLID_ANGLE_UNIT()
);
#679=DIMENSIONAL_EXPONENTS(0.,0.,0.,0.,0.,0.,0.);
#680=(
CONVERSION_BASED_UNIT('degree',#682)
NAMED_UNIT(#679)
PLANE_ANGLE_UNIT()
);
#681=(
NAMED_UNIT(*)
PLANE_ANGLE_UNIT()
SI_UNIT($,.RADIAN.)
);
#682=PLANE_ANGLE_MEASURE_WITH_UNIT(PLANE_ANGLE_MEASURE(0.01745329252),#681);
#683=SHAPE_DEFINITION_REPRESENTATION(#684,#685);
#684=PRODUCT_DEFINITION_SHAPE('',$,#687);
#685=SHAPE_REPRESENTATION('',(#405),#675);
#686=PRODUCT_DEFINITION_CONTEXT('part definition',#691,'design');
#687=PRODUCT_DEFINITION('New_Mod_SBMG_v1','New_Mod_SBMG_v1',#688,#686);
#688=PRODUCT_DEFINITION_FORMATION('',$,#693);
#689=PRODUCT_RELATED_PRODUCT_CATEGORY('New_Mod_SBMG_v1',
'New_Mod_SBMG_v1',(#693));
#690=APPLICATION_PROTOCOL_DEFINITION('international standard',
'ap242_managed_model_based_3d_engineering',2011,#691);
#691=APPLICATION_CONTEXT('Managed model based 3d engineering');
#692=PRODUCT_CONTEXT('part definition',#691,'mechanical');
#693=PRODUCT('New_Mod_SBMG_v1','New_Mod_SBMG_v1',$,(#692));
#694=PRESENTATION_STYLE_ASSIGNMENT((#695));
#695=SURFACE_STYLE_USAGE(.BOTH.,#696);
#696=SURFACE_SIDE_STYLE('',(#697));
#697=SURFACE_STYLE_FILL_AREA(#698);
#698=FILL_AREA_STYLE('',(#699));
#699=FILL_AREA_STYLE_COLOUR('',#700);
#700=COLOUR_RGB('',0.749019607843137,0.749019607843137,0.749019607843137);
ENDSEC;
END-ISO-10303-21;
